THE GODFATHER



 4/4
                    Em      D7        Em                        D7
|-------------0-3-|-2-0-3-0-2-0-----|-------------0-3-|-2-0-3-0-2-0-----|
|-----------0-----|-0-------1---1-3-|-0-----0---0-----|-0-------1---0---|
|-----------------|-0-------2---2-4-|-----0-----------|-0-------2-----3-|
|-----------------|-----------------|---2-------------|-----------------|
|-----------------|---------0-------|---------2-------|---------0-------|
|-----------------|-0---------------|-0---------------|-0---------------|

  Am                D7                Em
|-----------------|-2---------------|-0---------------|-----------------|
|-------1-----1-4-|-----1-------1-4-|---0-----------4-|-1-0-3-0-0-----4-|
|-2---2-----2-----|---2---2---2-----|-----0-------0---|-----------2-2---|
|---2-------------|-----------------|-------2---2-----|-------------1---|
|-0-------0-------|-0-------0-------|-----------------|-0-------2-------|
|-----------------|-----------------|-0-------0-------|-----------------|

                                      G                 D7
|-0---------------|---------2---0---|-----------------|-----------------|
|---0-------5-5-4-|-3-----3-------1-|-0-----0---0-3-0-|-------1-----1---|
|-----0-----------|-----2-----2-----|-----0-----------|-2---2-----2---2-|
|-----------------|-4-0-----0-------|---0-------------|---4-------------|
|-------2---------|-----------------|-----------------|-0-------0-------|
|-0-------0-------|-----------------|-3-------3-------|-----------------|

  B7                Em      D7        Em
|-0-------2---0-3-|-2-0-3-0-2-0-----|-------------0-3-|-2-0-3-0-2-0------|
|-0-----0-0-0-----|-0-------1---1-3-|-0-----0---0-----|-0-----------0----|
|-----2---2-------|-0-------2---2-4-|-----0-----------|-0-------------3--|
|---1-----1-------|-----------------|---2-------------|------------------|
|-2---------------|---------0-------|---------2-------|---------0--------|
|-----------------|-0---------------|-0---------------|-0----------------|

  Am                D7                Em
|-----------------|-2---------------|-0---------------|-----------------|-0---------*|
|-------1-----1-4-|-----1-------1-4-|---0-----------3-|-1-0-3-1-1-0-0-4-|---0-------*|
|-2---2-----2-----|---2---2---2-----|-----0-------0---|-----------------|-----0-----*|
|---2-------------|-----------------|-------2---2-----|-----------1-----|-----------*|
|-0-------0-------|-0-------0-------|-----------------|-0-------2-------|-------2---*|
|-----------------|-----------------|-0-------0-------|-----------------|-0-------0-*|

** Generated using Power Tab Editor by Brad Larsen: The Official Power Tab Web Site